ISO-10303-21;
HEADER;
FILE_DESCRIPTION (( 'STEP AP203' ),
    '1' );
FILE_NAME ('Q-QZWP-R4-25.4-1550-M.STEP',
    '2020-12-23T01:27:04',
    ( '' ),
    ( '' ),
    'SwSTEP 2.0',
    'SolidWorks 2020',
    '' );
FILE_SCHEMA (( 'CONFIG_CONTROL_DESIGN' ));
ENDSEC;

DATA;
#1 = COORDINATED_UNIVERSAL_TIME_OFFSET ( 8, 0, .AHEAD. ) ;
#2 = CALENDAR_DATE ( 2020, 23, 12 ) ;
#3 = LOCAL_TIME ( 9, 27, 4.000000000000000000, #83 ) ;
#4 = AXIS2_PLACEMENT_3D ( 'NONE', #47, #44, #34 ) ;
#5 = AXIS2_PLACEMENT_3D ( 'NONE', #61, #9, #149 ) ;
#6 = CALENDAR_DATE ( 2020, 23, 12 ) ;
#7 = PLANE ( 'NONE',  #41 ) ;
#8 = VERTEX_POINT ( 'NONE', #77 ) ;
#9 = DIRECTION ( 'NONE',  ( -1.000000000000000000, -0.000000000000000000, -0.000000000000000000 ) ) ;
#10 = DIRECTION ( 'NONE',  ( 0.000000000000000000, 0.000000000000000000, 1.000000000000000000 ) ) ;
#11 = EDGE_CURVE ( 'NONE', #161, #8, #49, .T. ) ;
#12 = ORIENTED_EDGE ( 'NONE', *, *, #136, .T. ) ;
#13 = ADVANCED_FACE ( 'NONE', ( #174 ), #151, .F. ) ;
#14 = APPROVAL_STATUS ( 'not_yet_approved' ) ;
#15 = COORDINATED_UNIVERSAL_TIME_OFFSET ( 8, 0, .AHEAD. ) ;
#16 = EDGE_CURVE ( 'NONE', #93, #140, #109, .T. ) ;
#17 = APPROVAL_ROLE ( '' ) ;
#18 = SHAPE_DEFINITION_REPRESENTATION ( #28, #92 ) ;
#19 = AXIS2_PLACEMENT_3D ( 'NONE', #130, #31, #137 ) ;
#20 = FACE_OUTER_BOUND ( 'NONE', #67, .T. ) ;
#21 = ORIENTED_EDGE ( 'NONE', *, *, #53, .F. ) ;
#22 = CYLINDRICAL_SURFACE ( 'NONE', #113, 15.00000000000000000 ) ;
#23 = DIRECTION ( 'NONE',  ( -1.000000000000000000, -0.000000000000000000, -0.000000000000000000 ) ) ;
#24 = DIRECTION ( 'NONE',  ( -1.000000000000000000, -0.000000000000000000, -0.000000000000000000 ) ) ;
#25 = ORIENTED_EDGE ( 'NONE', *, *, #11, .T. ) ;
#26 = PERSON_AND_ORGANIZATION ( #153, #145 ) ;
#27 = AXIS2_PLACEMENT_3D ( 'NONE', #104, #90, #10 ) ;
#28 = PRODUCT_DEFINITION_SHAPE ( 'NONE', 'NONE',  #122 ) ;
#29 = PERSON_AND_ORGANIZATION_ROLE ( 'design_owner' ) ;
#30 = PERSON_AND_ORGANIZATION_ROLE ( 'design_supplier' ) ;
#31 = DIRECTION ( 'NONE',  ( -1.000000000000000000, -0.000000000000000000, -0.000000000000000000 ) ) ;
#32 = DATE_TIME_ROLE ( 'classification_date' ) ;
#33 = CARTESIAN_POINT ( 'NONE',  ( -1.614212418857619014, 0.000000000000000000, 15.00000000000000000 ) ) ;
#34 = DIRECTION ( 'NONE',  ( -0.000000000000000000, 0.000000000000000000, 1.000000000000000000 ) ) ;
#35 = DIRECTION ( 'NONE',  ( 0.000000000000000000, 0.000000000000000000, 1.000000000000000000 ) ) ;
#36 = CC_DESIGN_DATE_AND_TIME_ASSIGNMENT ( #54, #112, ( #122 ) ) ;
#37 = ORIENTED_EDGE ( 'NONE', *, *, #53, .T. ) ;
#38 = AXIS2_PLACEMENT_3D ( 'NONE', #133, #148, #164 ) ;
#39 = PRODUCT_DEFINITION_FORMATION_WITH_SPECIFIED_SOURCE ( 'ANY', '', #154, .NOT_KNOWN. ) ;
#40 = APPROVAL_DATE_TIME ( #166, #68 ) ;
#41 = AXIS2_PLACEMENT_3D ( 'NONE', #63, #119, #60 ) ;
#42 =( NAMED_UNIT ( * ) SI_UNIT ( $, .STERADIAN. ) SOLID_ANGLE_UNIT ( ) );
#43 = EDGE_CURVE ( 'NONE', #93, #161, #175, .T. ) ;
#44 = DIRECTION ( 'NONE',  ( -1.000000000000000000, 0.000000000000000000, -0.000000000000000000 ) ) ;
#45 = CALENDAR_DATE ( 2020, 23, 12 ) ;
#46 = APPROVAL_PERSON_ORGANIZATION ( #141, #68, #125 ) ;
#47 = CARTESIAN_POINT ( 'NONE',  ( 3.000000000000000888, 12.69999999999999929, 0.000000000000000000 ) ) ;
#48 = EDGE_LOOP ( 'NONE', ( #21, #12, #132, #162 ) ) ;
#49 = CIRCLE ( 'NONE', #57, 15.00000000000000000 ) ;
#50 = CIRCLE ( 'NONE', #19, 15.00000000000000000 ) ;
#51 = ORIENTED_EDGE ( 'NONE', *, *, #43, .F. ) ;
#52 = CALENDAR_DATE ( 2020, 23, 12 ) ;
#53 = EDGE_CURVE ( 'NONE', #140, #8, #150, .T. ) ;
#54 = DATE_AND_TIME ( #2, #94 ) ;
#55 = APPROVAL_STATUS ( 'not_yet_approved' ) ;
#56 = PERSON_AND_ORGANIZATION ( #153, #145 ) ;
#57 = AXIS2_PLACEMENT_3D ( 'NONE', #91, #88, #171 ) ;
#58 = CARTESIAN_POINT ( 'NONE',  ( 3.000000000000000000, 1.836970198721029589E-15, -15.00000000000000000 ) ) ;
#59 = SECURITY_CLASSIFICATION_LEVEL ( 'unclassified' ) ;
#60 = DIRECTION ( 'NONE',  ( 0.000000000000000000, 0.000000000000000000, -1.000000000000000000 ) ) ;
#61 = CARTESIAN_POINT ( 'NONE',  ( -3.000000000000000000, 0.000000000000000000, 0.000000000000000000 ) ) ;
#62 = UNCERTAINTY_MEASURE_WITH_UNIT (LENGTH_MEASURE( 1.000000000000000082E-05 ), #106, 'distance_accuracy_value', 'NONE');
#63 = CARTESIAN_POINT ( 'NONE',  ( -3.000000000000000888, 12.69999999999999929, 0.000000000000000000 ) ) ;
#64 = ADVANCED_FACE ( 'NONE', ( #108 ), #101, .T. ) ;
#65 = SECURITY_CLASSIFICATION ( '', '', #59 ) ;
#66 = CC_DESIGN_PERSON_AND_ORGANIZATION_ASSIGNMENT ( #116, #84, ( #65 ) ) ;
#67 = EDGE_LOOP ( 'NONE', ( #25, #135 ) ) ;
#68 = APPROVAL ( #14, 'UNSPECIFIED' ) ;
#69 = CARTESIAN_POINT ( 'NONE',  ( 0.000000000000000000, 0.000000000000000000, 0.000000000000000000 ) ) ;
#70 =( GEOMETRIC_REPRESENTATION_CONTEXT ( 3 ) GLOBAL_UNCERTAINTY_ASSIGNED_CONTEXT ( ( #62 ) ) GLOBAL_UNIT_ASSIGNED_CONTEXT ( ( #106, #103, #42 ) ) REPRESENTATION_CONTEXT ( 'NONE', 'WORKASPACE' ) );
#71 = CC_DESIGN_DATE_AND_TIME_ASSIGNMENT ( #160, #32, ( #65 ) ) ;
#72 = CC_DESIGN_PERSON_AND_ORGANIZATION_ASSIGNMENT ( #128, #102, ( #39 ) ) ;
#73 = ORIENTED_EDGE ( 'NONE', *, *, #136, .F. ) ;
#74 = EDGE_LOOP ( 'NONE', ( #163, #73 ) ) ;
#75 = EDGE_LOOP ( 'NONE', ( #118, #37, #76, #51 ) ) ;
#76 = ORIENTED_EDGE ( 'NONE', *, *, #11, .F. ) ;
#77 = CARTESIAN_POINT ( 'NONE',  ( -3.000000000000000000, 1.836970198721029589E-15, -15.00000000000000000 ) ) ;
#78 = CLOSED_SHELL ( 'NONE', ( #155, #13, #64, #165 ) ) ;
#79 = PERSON_AND_ORGANIZATION ( #153, #145 ) ;
#80 = CC_DESIGN_APPROVAL ( #121, ( #65 ) ) ;
#81 = VECTOR ( 'NONE', #23, 1000.000000000000000 ) ;
#82 = MANIFOLD_SOLID_BREP ( 'Ðý×', #78 ) ;
#83 = COORDINATED_UNIVERSAL_TIME_OFFSET ( 8, 0, .AHEAD. ) ;
#84 = PERSON_AND_ORGANIZATION_ROLE ( 'classification_officer' ) ;
#85 = CC_DESIGN_APPROVAL ( #68, ( #122 ) ) ;
#86 = FACE_OUTER_BOUND ( 'NONE', #75, .T. ) ;
#87 = APPROVAL_DATE_TIME ( #100, #121 ) ;
#88 = DIRECTION ( 'NONE',  ( -1.000000000000000000, -0.000000000000000000, -0.000000000000000000 ) ) ;
#89 = CC_DESIGN_PERSON_AND_ORGANIZATION_ASSIGNMENT ( #79, #143, ( #122 ) ) ;
#90 = DIRECTION ( 'NONE',  ( -1.000000000000000000, -0.000000000000000000, -0.000000000000000000 ) ) ;
#91 = CARTESIAN_POINT ( 'NONE',  ( -3.000000000000000000, 0.000000000000000000, 0.000000000000000000 ) ) ;
#92 = ADVANCED_BREP_SHAPE_REPRESENTATION ( 'Q-QZWP-R4-25.4-1550-M', ( #82, #124 ), #70 ) ;
#93 = VERTEX_POINT ( 'NONE', #173 ) ;
#94 = LOCAL_TIME ( 9, 27, 4.000000000000000000, #15 ) ;
#95 = CC_DESIGN_SECURITY_CLASSIFICATION ( #65, ( #39 ) ) ;
#96 = CC_DESIGN_PERSON_AND_ORGANIZATION_ASSIGNMENT ( #56, #30, ( #39 ) ) ;
#97 = APPROVAL_ROLE ( '' ) ;
#98 = APPROVAL_STATUS ( 'not_yet_approved' ) ;
#99 = EDGE_CURVE ( 'NONE', #8, #161, #142, .T. ) ;
#100 = DATE_AND_TIME ( #6, #3 ) ;
#101 = CYLINDRICAL_SURFACE ( 'NONE', #38, 15.00000000000000000 ) ;
#102 = PERSON_AND_ORGANIZATION_ROLE ( 'creator' ) ;
#103 =( NAMED_UNIT ( * ) PLANE_ANGLE_UNIT ( ) SI_UNIT ( $, .RADIAN. ) );
#104 = CARTESIAN_POINT ( 'NONE',  ( 3.000000000000000000, 0.000000000000000000, 0.000000000000000000 ) ) ;
#105 = DESIGN_CONTEXT ( 'detailed design', #110, 'design' ) ;
#106 =( LENGTH_UNIT ( ) NAMED_UNIT ( * ) SI_UNIT ( .MILLI., .METRE. ) );
#107 = APPROVAL ( #55, 'UNSPECIFIED' ) ;
#108 = FACE_OUTER_BOUND ( 'NONE', #48, .T. ) ;
#109 = CIRCLE ( 'NONE', #27, 15.00000000000000000 ) ;
#110 = APPLICATION_CONTEXT ( 'configuration controlled 3d designs of mechanical parts and assemblies' ) ;
#111 = APPROVAL_PERSON_ORGANIZATION ( #144, #107, #97 ) ;
#112 = DATE_TIME_ROLE ( 'creation_date' ) ;
#113 = AXIS2_PLACEMENT_3D ( 'NONE', #115, #159, #35 ) ;
#114 = COORDINATED_UNIVERSAL_TIME_OFFSET ( 8, 0, .AHEAD. ) ;
#115 = CARTESIAN_POINT ( 'NONE',  ( -1.614212418857619014, 0.000000000000000000, 0.000000000000000000 ) ) ;
#116 = PERSON_AND_ORGANIZATION ( #153, #145 ) ;
#117 = APPROVAL_PERSON_ORGANIZATION ( #129, #121, #17 ) ;
#118 = ORIENTED_EDGE ( 'NONE', *, *, #16, .T. ) ;
#119 = DIRECTION ( 'NONE',  ( 1.000000000000000000, 0.000000000000000000, 0.000000000000000000 ) ) ;
#120 = CARTESIAN_POINT ( 'NONE',  ( -1.614212418857619014, 1.836970198721029589E-15, -15.00000000000000000 ) ) ;
#121 = APPROVAL ( #98, 'UNSPECIFIED' ) ;
#122 = PRODUCT_DEFINITION ( 'UNKNOWN', '', #39, #105 ) ;
#123 = DIRECTION ( 'NONE',  ( 0.000000000000000000, 0.000000000000000000, 1.000000000000000000 ) ) ;
#124 = AXIS2_PLACEMENT_3D ( 'NONE', #69, #123, #168 ) ;
#125 = APPROVAL_ROLE ( '' ) ;
#126 = APPLICATION_PROTOCOL_DEFINITION ( 'international standard', 'config_control_design', 1994, #110 ) ;
#127 = APPLICATION_PROTOCOL_DEFINITION ( 'international standard', 'config_control_design', 1994, #134 ) ;
#128 = PERSON_AND_ORGANIZATION ( #153, #145 ) ;
#129 = PERSON_AND_ORGANIZATION ( #153, #145 ) ;
#130 = CARTESIAN_POINT ( 'NONE',  ( 3.000000000000000000, 0.000000000000000000, 0.000000000000000000 ) ) ;
#131 = DATE_AND_TIME ( #45, #138 ) ;
#132 = ORIENTED_EDGE ( 'NONE', *, *, #43, .T. ) ;
#133 = CARTESIAN_POINT ( 'NONE',  ( -1.614212418857619014, 0.000000000000000000, 0.000000000000000000 ) ) ;
#134 = APPLICATION_CONTEXT ( 'configuration controlled 3d designs of mechanical parts and assemblies' ) ;
#135 = ORIENTED_EDGE ( 'NONE', *, *, #99, .T. ) ;
#136 = EDGE_CURVE ( 'NONE', #140, #93, #50, .T. ) ;
#137 = DIRECTION ( 'NONE',  ( 0.000000000000000000, 0.000000000000000000, 1.000000000000000000 ) ) ;
#138 = LOCAL_TIME ( 9, 27, 4.000000000000000000, #158 ) ;
#139 = CC_DESIGN_PERSON_AND_ORGANIZATION_ASSIGNMENT ( #26, #29, ( #154 ) ) ;
#140 = VERTEX_POINT ( 'NONE', #58 ) ;
#141 = PERSON_AND_ORGANIZATION ( #153, #145 ) ;
#142 = CIRCLE ( 'NONE', #5, 15.00000000000000000 ) ;
#143 = PERSON_AND_ORGANIZATION_ROLE ( 'creator' ) ;
#144 = PERSON_AND_ORGANIZATION ( #153, #145 ) ;
#145 = ORGANIZATION ( 'UNSPECIFIED', 'UNSPECIFIED', '' ) ;
#146 = CC_DESIGN_APPROVAL ( #107, ( #39 ) ) ;
#147 = CARTESIAN_POINT ( 'NONE',  ( -3.000000000000000000, 0.000000000000000000, 15.00000000000000000 ) ) ;
#148 = DIRECTION ( 'NONE',  ( -1.000000000000000000, -0.000000000000000000, -0.000000000000000000 ) ) ;
#149 = DIRECTION ( 'NONE',  ( 0.000000000000000000, 0.000000000000000000, 1.000000000000000000 ) ) ;
#150 = LINE ( 'NONE', #120, #81 ) ;
#151 = PLANE ( 'NONE',  #4 ) ;
#152 = LOCAL_TIME ( 9, 27, 4.000000000000000000, #1 ) ;
#153 = PERSON ( 'UNSPECIFIED', 'UNSPECIFIED', 'UNSPECIFIED', ('UNSPECIFIED'), ('UNSPECIFIED'), ('UNSPECIFIED') ) ;
#154 = PRODUCT ( 'Q-QZWP-R4-25.4-1550-M', 'Q-QZWP-R4-25.4-1550-M', '', ( #157 ) ) ;
#155 = ADVANCED_FACE ( 'NONE', ( #86 ), #22, .T. ) ;
#156 = VECTOR ( 'NONE', #24, 1000.000000000000000 ) ;
#157 = MECHANICAL_CONTEXT ( 'NONE', #134, 'mechanical' ) ;
#158 = COORDINATED_UNIVERSAL_TIME_OFFSET ( 8, 0, .AHEAD. ) ;
#159 = DIRECTION ( 'NONE',  ( -1.000000000000000000, -0.000000000000000000, -0.000000000000000000 ) ) ;
#160 = DATE_AND_TIME ( #169, #167 ) ;
#161 = VERTEX_POINT ( 'NONE', #147 ) ;
#162 = ORIENTED_EDGE ( 'NONE', *, *, #99, .F. ) ;
#163 = ORIENTED_EDGE ( 'NONE', *, *, #16, .F. ) ;
#164 = DIRECTION ( 'NONE',  ( 0.000000000000000000, 0.000000000000000000, 1.000000000000000000 ) ) ;
#165 = ADVANCED_FACE ( 'NONE', ( #20 ), #7, .F. ) ;
#166 = DATE_AND_TIME ( #52, #152 ) ;
#167 = LOCAL_TIME ( 9, 27, 4.000000000000000000, #114 ) ;
#168 = DIRECTION ( 'NONE',  ( 1.000000000000000000, 0.000000000000000000, 0.000000000000000000 ) ) ;
#169 = CALENDAR_DATE ( 2020, 23, 12 ) ;
#170 = PRODUCT_RELATED_PRODUCT_CATEGORY ( 'detail', '', ( #154 ) ) ;
#171 = DIRECTION ( 'NONE',  ( 0.000000000000000000, 0.000000000000000000, 1.000000000000000000 ) ) ;
#172 = APPROVAL_DATE_TIME ( #131, #107 ) ;
#173 = CARTESIAN_POINT ( 'NONE',  ( 3.000000000000000000, 0.000000000000000000, 15.00000000000000000 ) ) ;
#174 = FACE_OUTER_BOUND ( 'NONE', #74, .T. ) ;
#175 = LINE ( 'NONE', #33, #156 ) ;
ENDSEC;
END-ISO-10303-21;
